Главная | RSS
Меню

Наш опрос

Любимый клип Three Days Grace
Всего ответов: 7753




Three Days Grace
Three Days Grace
Год выпуска: 2003
Стиль: Alternative
Кол-во композиций: 12










1.BURN


Tuning: Dropped D (D,A,D,G,B,E)

Intro
|----------------------------------------------------------|
|----------------------------------------------------------|
|----------------------------------------------------------|
|----------------------------------------------------------| (x3)
|----------------------------------------------------------|
|-0-10-12-10-12-10-0-10-12-10-12-10-0-10-12-13-------------|

|--------------------------------------------|
|--------------------------------------------|
|--------------------------------------------|
|--------------------------------------------|
|--------------------------------------------|
|-0-10-12-10-12-10-0-10-12/------------------|

|--------------------------------------------|
|--------------------------------------------|
|--------------------------------------------|
|-0-10-12--12-10-0-10-12--12-10--10--12h13---| (x4)
|-0-10-12--12-10-0-10-12--12-10--10--12h13---|
|-0-10-12--12-10-0-10-12--12-10--10--12h13---|

|--------------------------------------|
|--------------------------------------|
|--------------------------------------|
|-0--0--12-10--0-12--0-10--10-12h13----| (x3)
|-0--0--12-10--0-12--0-10--10-12h13----|
|-0--0--12-10--0-12--0-10--10-12h13----|

|------------------------------------------|
|------------------------------------------|
|------------------------------------------|
|-0--0--12-10--0-12/-----------------------|
|-0--0--12-10--0-12/-----------------------|
|-0--0--12-10--0-12/-----------------------|

Verse
|---------------------------------------------|
|---------------------------------------------|
|---------------------------------------------|
|-6--6--6--6--6--6--6--7----------------------|
|-5--5--5--5--5--5--5--5----------------------|
|-0-------------------------------------------|
(x4)
(with tremolo)
|--18~--18~--18~--18~--18~--18~--18~-----------|
|----------------------------------------------|
|----------------------------------------------|
|----------------------------------------------|
|----------------------------------------------|
|----------------------------------------------|

|------------------------------------------|
|------------------------------------------|
|--/9--------------------------------------|
|--/10--------7-7-7-7-8p7-7-10-------------|
|--/8---------7-7-7-7-8p7-7-10-------------|
|-------------7-7-7-7-8p7-7-10-------------|

Chorus
|------------------------------------------------------------------------|
|------------------------------------------------------------------------|
|------------------------------------------------------------------------|
|-0--0--7-7----10----10-10--8-8-5-5--5-5--5-3---3-1---7-7-7-7-8p7-7-10---| (x2)
|-0--0--7-7----8-----8--8---8-8-5-5--5-5--5-3---3-1---7-7-7-7-8p7-7-10---|
|-0--0--7-7----8-----8--8---8-8-5-5--5-5--5-3---3-1---7-7-7-7-8p7-7-10---|

Verse

Chorus

Bridge
|------------------------------------------------|
|------------------------------------------------|
|------------------------------------------------|
|-0-10-12-10-12-10-0-10-12-10-12-10-0-10-12-13---| (x2)
|-0-10-12-10-12-10-0-10-12-10-12-10-0-10-12-13---|
|-0-10-12-10-12-10-0-10-12-10-12-10-0-10-12-13---|

|--------------------------------------------|
|--------------------------------------------|
|--------------------------------------------|
|-0-10-12--12-10-0-10-12--12-10--10--12h13---| (x2)
|-0-10-12--12-10-0-10-12--12-10--10--12h13---|
|-0-10-12--12-10-0-10-12--12-10--10--12h13---|

|----------------------------------------------------------------------------|
|-----------------------9-9-9b10(10)(10)(10)(10)(10)(10)(10)(10)(10)-10^-9---|
|----------------------------------------------------------------------------|
|--6--6--6--6--6--6--7-------------------------------------------------------|(x2)
|--5--5--5--5--5--5--5-------------------------------------------------------|
|----------------------------------------------------------------------------|

|---------------------------------------------------|
|---------------------------------------------------|
|---------------------------------------------------|
|--3-----5------3-------7-7-7-7---------------------|
|--3-----5------3-------7-7-7-7---------------------|
|--3-----5------3-------7-7-7-7---------------------|

Chorus

Outro
|------------------------------------------------|
|------------------------------------------------|
|------------------------------------------------|
|-0-10-12-10-12-10-0-10-12-10-12-10-0-10-12-13---| (x2)
|-0-10-12-10-12-10-0-10-12-10-12-10-0-10-12-13---|
|-0-10-12-10-12-10-0-10-12-10-12-10-0-10-12-13---|

|--------------------------------------------|
|--------------------------------------------|
|--------------------------------------------|
|-0-10-12--12-10-0-10-12--12-10--10--12h13---| (x2)
|-0-10-12--12-10-0-10-12--12-10--10--12h13---|
|-0-10-12--12-10-0-10-12--12-10--10--12h13---|

|---------------------------------------------|
|---------------------------------------------|
|---------------------------------------------|
|---------0-12-10-0-10-12--12-10--10--12h13---|
|---------0-12-10-0-10-12--12-10--10--12h13---|
|---------0-12-10-0-10-12--12-10--10--12h13---|

|--------------------------------------------|
|--------------------------------------------|
|--------------------------------------------|
|-0-10-12--12-10-0-10-12--12-10--10--12h13---|
|-0-10-12--12-10-0-10-12--12-10--10--12h13---|
|-0-10-12--12-10-0-10-12--12-10--10--12h13---|

|---------------------------------------------|
|---------------------------------------------|
|---------------------------------------------|
|-------0-0-12-10-0-10-12--12-10--10--12h13---| (x3)
|-------0-0-12-10-0-10-12--12-10--10--12h13---|
|-------0-0-12-10-0-10-12--12-10--10--12h13---|

|----------------------------------------------------|
|----------------------------------------------------|
|----------------------------------------------------|
|-------0-0-12-10-0-10-12--12-12-12-10-10-10-12h13---|
|-------0-0-12-10-0-10-12--12-12-12-10-10-10-12h13---|
|-------0-0-12-10-0-10-12--12-12-12-10-10-10-12h13---|

|---------------------------------------|
|---------------------------------------|
|---------------------------------------|
|-0-0-0--12-10--0-12--0-10--10-12h13----| (x4)
|-0-0-0--12-10--0-12--0-10--10-12h13----|
|-0-0-0--12-10--0-12--0-10--10-12h13----|

2.JUST LIKE YOU


Tuning: Dropped D, half a step down. (Db,Ab,Db,Gb,Bb,Eb)

Intro/Outro/Verse (x3)
|------------------------------------------------------------------|
|------------------------------------------------------------------|
|------------------------------------------------------------------|
|--9-7-4-0-9-9---9-7-4-0-9-9---9-7-4-0-9-9---7---x-x-9--x-x-9------|
|--9-7-4-0-9-9---9-7-4-0-9-9---9-7-4-0-9-9---5---x-x-7--x-x-7------|
|--9-7-4-0-9-9---9-7-4-0-9-9---9-7-4-0-9-9---5---x-x-7--x-x-7------|

Pre-chorus:
|------------------------------------------------------------------|
|------------------------------------------------------------------|
|--6----------7----------6-----------------------------------------|
|--4----------5----------4---------7--7--7--7---x-x-9--x-x-9-------|
|--4----------5----------4---------5--5--5--5---x-x-7--x-x-7-------|
|--4----------5----------4---------5--5--5--5---x-x-7--x-x-7-------|
pm * * * *

Chorus (x2)
|-----------------------------------------------------------------------------|
|-----------------------------------------------------------------------------|
|-----------------------------------------------------------------------------|
|--9--9----0--0----7--7----10--10-----9--9----0--0----7--7----x-x-9---x-x-9---|
|--9--9----0--0----7--7----10--10-----9--9----0--0----5--5----x-x-7---x-x-7---|
|--9--9----0--0----7--7----10--10-----9--9----0--0----5--5----x-x-7---x-x-7---|

Verse

Pre-chorus

Chorus

Bridge (x2)
|----------------------------------------------------------|
|----------------------------------------------------------|
|----------------------------------------------------------|
|--7--7--7--7-0--0---9-7-4-0--2--2--2--2-7--7---9-7-4-0----|
|--5--5--5--5-0--0---9-7-4-0--2--2--2--2-7--7---9-7-4-0----|
|--5--5--5--5-0--0---9-7-4-0--2--2--2--2-7--7---9-7-4-0----|

Pre-chorus

Chorus

Outro

3.I HATE EVERYTHING ABOUT YOU



Intro (Clean)
E|------------------------------------------|
B|------------------------------------------|
G|----4-6b-------4-6b-------4-6b-------4-6b-|
D|----4-6b-------4-6b-------4-6b-------4-6b-|
A|------------------------------------------|
D|-4--------0h4--------0h4--------0h4-------|

Intro Continued (clean)
E|--------------------------------------------|
B|--------------------------------------------|
G|------4-6b-------4-6b-------4-6b-------4-6b-|
D|------4-6b-------4-6b-------4-6b-------4-6b-|
A|--------------------------------------------|
D|-0-0--------0-0--------0-0--------0-0-------|x1

Verse 1 (clean)
E|------------------------------------------|
B|------------------------------------------|
G|----4-6b-------4-6b-------4-6b-------4-6b-|
D|----4-6b-------4-6b-------4-6b-------4-6b-|
A|------------------------------------------|
D|-4--------0h4--------0h4--------0h4-------|

Verse 1 Continued (clean)
E|--------------------------------------------|
B|--------------------------------------------|
G|------4-6b-------4-6b-------4-6b-------4-6b-|
D|------4-6b-------4-6b-------4-6b-------4-6b-|
A|--------------------------------------------|
D|-0-0--------0-0--------0-0--------0-0-------|x4

Pre-chorus (distortion)
E|---------------------------------------|
B|---------------------------------------|
G|---------------------------------------|
D|-2--------------------0------------6---|
A|-2--------------------0------------4---|
D|-2--------------------0----------------|x1

Chorus (Heavy Distortion)
E|----------------------------------------------------------------------------------------|
B|----------------------------------------------------------------------------------------|
G|----------------------------------------------------------------------------------------|
D|-4-4----0-0----7-7-7-7-77-7--2-2-2-2-2-----4-4-4-4-44-4--0-0-0-0-0----2-2-2-2-22-2--7-6-|
A|-4-4----0-0----7-7-7-7-77-7--2-2-2-2-2-----4-4-4-4-44-4--0-0-0-0-0----2-2-2-2-22-2--7-6-|
D|-4-4----0-0----7-7-7-7-77-7--2-2-2-2-2-----4-4-4-4-44-4--0-0-0-0-0----2-2-2-2-22-2--7-6-|x2

Chorus Breakdown (clean)
E|------------------------------------------|
B|------------------------------------------|
G|----4-6b-------4-6b-------4-6b-------4-6b-|
D|----4-6b-------4-6b-------4-6b-------4-6b-|
A|------------------------------------------|
D|-4--------0h4--------0h4--------0h4-------|

Chorus Breakdown Continued (clean)
E|--------------------------------------------|
B|--------------------------------------------|
G|------4-6b-------4-6b-------4-6b-------4-6b-|
D|------4-6b-------4-6b-------4-6b-------4-6b-|
A|--------------------------------------------|
D|-0-0--------0-0--------0-0--------0-0-------|x1

Verse 2 (clean)
E|------------------------------------------|
B|------------------------------------------|
G|----4-6b-------4-6b-------4-6b-------4-6b-|
D|----4-6b-------4-6b-------4-6b-------4-6b-|
A|------------------------------------------|
D|-4--------0h4--------0h4--------0h4-------|

Verse 2 Continued (clean)
E|--------------------------------------------|
B|--------------------------------------------|
G|------4-6b-------4-6b-------4-6b-------4-6b-|
D|------4-6b-------4-6b-------4-6b-------4-6b-|
A|--------------------------------------------|
D|-0-0--------0-0--------0-0--------0-0-------|x2
Pre-chorus 2 (distortion)
E|---------------------------------------|
B|---------------------------------------|
G|---------------------------------------|
D|-2--------------------0------------6---|
A|-2--------------------0------------4---|
D|-2--------------------0----------------|x1

Chorus 2 (Heavy Distortion)
E|----------------------------------------------------------------------------------------|
B|----------------------------------------------------------------------------------------|
G|----------------------------------------------------------------------------------------|
D|-4-4----0-0----7-7-7-7-77-7--2-2-2-2-2-----4-4-4-4-44-4--0-0-0-0-0----2-2-2-2-22-2--7-6-|
A|-4-4----0-0----7-7-7-7-77-7--2-2-2-2-2-----4-4-4-4-44-4--0-0-0-0-0----2-2-2-2-22-2--7-6-|
D|-4-4----0-0----7-7-7-7-77-7--2-2-2-2-2-----4-4-4-4-44-4--0-0-0-0-0----2-2-2-2-22-2--7-6-|x2

Bridge (Clean)
E|--|---------------------------------------------------------------------------|
B|------------------------------------------------------------------------------|
G|------------------------------------------------------------------------------|
D|-6--7--9--6--7--9--6--7--9--6--7/6-----6--7--9--6--7--9--6--7--9--6--7/6------|
A|------------------------------------7-------------------------------------7/3-|
D|------------------------------------------------------------------------------|x1

Pre Chorus 3 (Clean)
E|------------------------------------------|
B|------------------------------------------|
G|----4-6b-------4-6b-------4-6b-------4-6b-|
D|----4-6b-------4-6b-------4-6b-------4-6b-|
A|------------------------------------------|
D|-4--------0h4--------0h4--------0h4-------|x1

Chorus 3 (Heavy Distortion)
E|----------------------------------------------------------------------------------------|
B|----------------------------------------------------------------------------------------|
G|----------------------------------------------------------------------------------------|
D|-4-4----0-0----7-7-7-7-77-7--2-2-2-2-2-----4-4-4-4-44-4--0-0-0-0-0----2-2-2-2-22-2--7-6-|
A|-4-4----0-0----7-7-7-7-77-7--2-2-2-2-2-----4-4-4-4-44-4--0-0-0-0-0----2-2-2-2-22-2--7-6-|
D|-4-4----0-0----7-7-7-7-77-7--2-2-2-2-2-----4-4-4-4-44-4--0-0-0-0-0----2-2-2-2-22-2--7-6-|x4

Ending (distortion)
E|-----------------|
B|-----------------|
G|-----------------|
D|-----------------|
A|--4~-------------|
D|--4~-------------|

4.HOME



Tuning: Drop C. Low to high (C, G, C, F, A, D)

Intro:

Guitar One
|----------------------------|-----------------------------|
|----------------------------|-----------------------------|
|----------------------------|-----------------------------|
|0-0---0-0---10-10--5-5------|-0-0---0-0---1-1---5-5-------|
|0-0---0-0---8--8---5-5------|-0-0---0-0---1-1---3-3-------|
|0-0---0-0---8--8---5-5------|-0-0---0-0---1-1-------------|

Guitar Two
|---17----17-----18----20-18-|----17----17-----18----20-18-|
|----------------------------|-----------------------------|
|----------------------------|-----------------------------|
|----------------------------|-----------------------------|
|----------------------------|-----------------------------|
|----------------------------|-----------------------------|

Guitar One
|------------------------------------------|--------------------------------------------|
|------------------------------------------|--------------------------------------------|
|------------------------------------------|--------------------------------------------|
|0-0-x-x-x-0-0-x-x-x-10-10-x-x-x-5-5-x-x-x-|-0-0-x-x-x-0-0-x-x-x-1-1-x-x-x-5-5-x-x-x----|
|0-0-x-x-x-0-0-x-x-x-8--8--x-x-x-5-5-x-x-x-|-0-0-x-x-x-0-0-x-x-x-1-1-x-x-x-3-3-x-x-x----|
|0-0-x-x-x-0-0-x-x-x-8--8--x-x-x-5-5-x-x-x-|-0-0-x-x-x-0-0-x-x-x-1-1-x-x-x--------------|

Guitar Two
|-----17--------17----------18-------20-18-|------17---------17--------18-------20-18-17|
|------------------------------------------|--------------------------------------------|
|------------------------------------------|--------------------------------------------|
|------------------------------------------|--------------------------------------------|
|------------------------------------------|--------------------------------------------|
|------------------------------------------|--------------------------------------------|

Verse:

Guitar One
|----------------------------------------------------------------------|
|----------------------------------------------------------------------|
|----------------------------------------------------------------------|
|----------------------------------------------------------------------|
|----------------------------------------------------------------------|
|------------------------------------------0-3p0-0-5p0-0-7p0-0-8-10-12-|(do twice)

Guitar Two
|--------------------|---------------------|
|--10---10---10---10-|---11---11---11---11-|
|7----7----7----7----|-7----7----7----7----|
|--------------------|---------------------|
|--------------------|---------------------|
|--------------------|---------------------|

Chorus:

Guitar One and Two:
|-----------------|----0-----------|----0------------|----0-------------|
|-----------------|----3-----------|----3------------|----3-------------|
|-----------------|----2-----------|----2------------|----2-------------|
|---------10--5---|-0------1---5---|-0------10---5---|-0------1-----5---|
|0-0-0-0--8---5---|-0------1---3---|-0------8----5---|-0------1-----3---|
|0-0-0-0--8---5---|-0------1-------|-0------8----5---|-0------1---------|

Better off alone
Guitar One
|----------------------------|-----------------------------|
|----------------------------|-----------------------------|
|----------------------------|-----------------------------|
|0-0---0-0---10-10--5-5------|-0-0---0-0---1-1---5-5-------|
|0-0---0-0---8--8---5-5------|-0-0---0-0---1-1---3-3-------|
|0-0---0-0---8--8---5-5------|-0-0---0-0---1-1-------------|

Guitar Two
|---17----17-----18----20-18-|----17----17-----18----20-18-|
|----------------------------|-----------------------------|
|----------------------------|-----------------------------|
|----------------------------|-----------------------------|
|----------------------------|-----------------------------|
|----------------------------|-----------------------------|

Guitar One
|----------------------------|
|----------------------------|
|----------------------------|
|----------------------------|
|----------------------------|
|0-3p0-0-5p0-0-7p0-0-8-10-12-|

Verse:

Guitar One
|----------------------------------------------------------------------|
|----------------------------------------------------------------------|
|----------------------------------------------------------------------|
|----------------------------------------------------------------------|
|----------------------------------------------------------------------|
|------------------------------------------0-3p0-0-5p0-0-7p0-0-8-10-12-|(do twice)

Guitar Two
|--------------------|---------------------|
|--10---10---10---10-|---11---11---11---11-|
|7----7----7----7----|-7----7----7----7----|
|--------------------|---------------------|
|--------------------|---------------------|
|--------------------|---------------------|

Chorus:

Guitar One and Two:
|-----------------|----0-----------|----0------------|----0-------------|
|-----------------|----3-----------|----3------------|----3-------------|
|-----------------|----2-----------|----2------------|----2-------------|
|---------10--5---|-0------1---5---|-0------10---5---|-0------1-----5---|
|0-0-0-0--8---5---|-0------1---3---|-0------8----5---|-0------1-----3---|
|0-0-0-0--8---5---|-0------1-------|-0------8----5---|-0------1---------|

Better off alone
Guitar One
|----------------------------|-----------------------------|
|----------------------------|-----------------------------|
|----------------------------|-----------------------------|
|0-0---0-0---10-10--5-5------|-0-0---0-0---1-1---5-5-------|
|0-0---0-0---8--8---5-5------|-0-0---0-0---1-1---3-3-------|
|0-0---0-0---8--8---5-5------|-0-0---0-0---1-1-------------|

Guitar Two
|---17----17-----18----20-18-|----17----17-----18----20-18-|
|----------------------------|-----------------------------|
|----------------------------|-----------------------------|
|----------------------------|-----------------------------|
|----------------------------|-----------------------------|
|----------------------------|-----------------------------|

Guitar One
|------------------------------------------|--------------------------------------------|
|------------------------------------------|--------------------------------------------|
|------------------------------------------|--------------------------------------------|
|0-0-x-x-x-0-0-x-x-x-10-10-x-x-x-5-5-x-x-x-|-0-0-x-x-x-0-0-x-x-x-1-1-x-x-x-5-5-x-x-x----|
|0-0-x-x-x-0-0-x-x-x-8--8--x-x-x-5-5-x-x-x-|-0-0-x-x-x-0-0-x-x-x-1-1-x-x-x-3-3-x-x-x----|
|0-0-x-x-x-0-0-x-x-x-8--8--x-x-x-5-5-x-x-x-|-0-0-x-x-x-0-0-x-x-x-1-1-x-x-x--------------|

Guitar Two
|-----17--------17----------18-------20-18-|------17---------17--------18-------20-18-17|
|------------------------------------------|--------------------------------------------|
|------------------------------------------|--------------------------------------------|
|------------------------------------------|--------------------------------------------|
|------------------------------------------|--------------------------------------------|
|------------------------------------------|--------------------------------------------|

Bridge:

Guitar One [this part is actually bass, but you can turn your volume knob down and play along]
|--------------------------------|
|--------------------------------|
|--------------------------------|
|--------------------------------|
|--------------------------------|
|0-0-0-0-0-0-0-0-8-8-8-8-5-5-5-5-| (x3)

Guitar Two:
|------------------------|
|------------------------|
|------------------------|
|------------------------|
|------------------------|
|0-0-0-0-0-0-0-0-1-1-1-1-| I'm better off alone

Chorus:

Guitar One and Two:
|-----------------|----0-----------|----0------------|----0-------------|
|-----------------|----3-----------|----3------------|----3-------------|
|-----------------|----2-----------|----2------------|----2-------------|
|---------10--5---|-0------1---5---|-0------10---5---|-0------1-----5---|
|0-0-0-0--8---5---|-0------1---3---|-0------8----5---|-0------1-----3---|
|0-0-0-0--8---5---|-0------1-------|-0------8----5---|-0------1---------|

Better off alone
Guitar One
|----------------------------|-----------------------------|
|----------------------------|-----------------------------|
|----------------------------|-----------------------------|
|0-0---0-0---10-10--5-5------|-0-0---0-0---1-1---5-5-------|
|0-0---0-0---8--8---5-5------|-0-0---0-0---1-1---3-3-------|
|0-0---0-0---8--8---5-5------|-0-0---0-0---1-1-------------|

Guitar Two
|---17----17-----18----20-18-|----17----17-----18----20-18-|
|----------------------------|-----------------------------|
|----------------------------|-----------------------------|
|----------------------------|-----------------------------|
|----------------------------|-----------------------------|
|----------------------------|-----------------------------| (repeat)

Ends with an open D

1c.2c.3c.






Rambler's Top100 CY-PR.com
Copyright IIIdg © 2019