Главная | RSS
Меню

Наш опрос

Любимый клип Three Days Grace
Всего ответов: 7753



One-X
One-X
Год выпуска: 4 июня 2006
Стиль: Nu Metal
Кол-во композиций: 13




1.IT'S ALL OVER


Intro (x3)
D|-------------------------------------------|-----------------------------|(x1)
A|-------------------------------------------|-----------------------------|
F|-------------------------------------------|-----------------------------|
C|-0--0--0---7--7--7---3--3--3---2--3--2--3--|-x--5-5-5-5-5-5-5---3~~~~~~~~|
G|-0--0--0---7--7--7---3--3--3---2--3--2--3--|-x--5-5-5-5-5-5-5---3~~~~~~~~|
C|-0--0--0---7--7--7---3--3--3---2--3--2--3--|-x--5-5-5-5-5-5-5---3~~~~~~~~|

Verse PM (x3)
D|--------------------------------------|----------------------------------|(x1)
A|--------------------------------------|----------------------------------|
F|--------------------------------------|----------------------------------|
C|--------------------------------------|----------------------------------|
G|-5-5-5-5--0-0-0-0--8-8-8-8--7-8-7-8---|------------------8-8-8-8-8-8-8-8-|
C|--------------------------------------|-5-5-5-5-5-5-5-5------------------|

Pre-chorus (x1)
D|------------------------------------|
A|------------------------------------|
F|------------------------------------|
C|-5-5-5-5-5-5-5-5-----8----x-x--10---|
G|-5-5-5-5-5-5-5-5-----8----x-x--10---|
C|-5-5-5-5-5-5-5-5-----8----x-x--10---|

Chorus (x2)
D|----------------------------------------------------------------|(x1)
A|----------------------------------------------------------------|
F|----------------------------------------------------------------|
C|---0~------8~-----5-5-5-5-5-5-5----10-10-10-10-10-10-10----3----|
G|---0~------8~-----5-5-5-5-5-5-5----10-10-10-10-10-10-10----3----|
C|---0~------8~-----5-5-5-5-5-5-5----10-10-10-10-10-10-10----3----|

Repeat Verse, Pre-chorus, and Chorus.

Bridge/Intro (x3)
D|-----------------------------------------------|----------------------|(x1)
A|-----------------------------------------------|----------------------|
F|-----------------------------------------------|----------------------|
C|-----0--0--0---7--7--7---3--3--3---2--3--2--3--|---5-5-5-5----8-8-8-8-|
G|-3v--0--0--0---7--7--7---3--3--3---2--3--2--3--|---5-5-5-5----8-8-8-8-|
C|-----0--0--0---7--7--7---3--3--3---2--3--2--3--|---5-5-5-5----8-8-8-8-|

Solo (x2)
D|----------18-18-17b18r17b18r17------------13-12-------------------------|
A|-15h17h18-----------------------15h17h18--------13-10b11r10b11r10-8-10--|
F|------------------------------------------------------------------------|
C|------------------------------------------------------------------------|
G|------------------------------------------------------------------------|
C|------------------------------------------------------------------------|
chord played after solo
D|-----------------------13-12h13p12-10-8-----|-------0-------|
A|--------------------------------------------|-------6-------|
F|-15-15-14b15r14b15r14-----------------------|-------5-------|
C|--------------------------------------------|-------0-------|
G|--------------------------------------------|-------0-------|
C|--------------------------------------------|---------------|

Repeat chorus, then end with this.
D|-------------------------------------------|(x1)
A|-------------------------------------------|
F|-------------------------------------------|
C|-0--0--0---7--7--7---3--3--3---2--3--2--3--|
G|-0--0--0---7--7--7---3--3--3---2--3--2--3--|
C|-0--0--0---7--7--7---3--3--3---2--3--2--3--|

2.PAIN


Intro/verse (x1)
E|-----0-------0-----0-------0-|-----0-------0-----0--------0---------0--|
B|-------0-------------0-------|-------0-------------0-------------------|
G|---4-------4-----4-------4---|---4-------4-----4--------4-------4------|
D|-2-------1-----0-------------|-2-------1-----0----------------2---2----|
A|-----------------------4-----|------------------------4-----3----------|
D|-----------------------------|-----------------------------------------|

Chorus (x1)
E|------------------------------------------------------|
B|------------------------------------------------------|
G|---------4-5-4-2--------------------4-5-4-2-----------|
D|-2--2----x-x-x-x----5--0----2--2----x-x-x-x----7--0---|
A|-2--2----2-3-2-0----5--0----2--2----2-3-2-0----7--0---|
D|-2--2---------------5--0----2--2---------------7--0---|

E|------------------------------------------------------------|
B|------------------------------------------------------------|
G|---------4-5-4-2----------------------------------11-12-11--|
D|-2--2----x-x-x-x----5--0----12-12-12-12----0--0----x--x--x--|
A|-2--2----2-3-2-0----5--0----10-10-10-10----0--0----9-10--9--|
D|-2--2---------------5--0----10-10-10-10----0--0-------------|

Bridge (x4)
E|---------------------------------------------------|
B|---------------------------------------------------|
G|11--12-11--12-11--12-11--12-11--5-5-5-5--7-7-7-7---|
D|-x---x--x---x--x---x--x---x--x--5-5-5-5--7-7-7-7---|
A|-9--10--9--10--9--10--9--10--9--3-3-3-3--5-5-5-5---|
D|---------------------------------------------------|

Outro (x1)
E|-----------------------------|
B|-----------------------------|
G|11--12-11--12-11--12-11--12--|
D|-x---x--x---x--x---x--x---x--|
A|-9--10--9--10--9--10--9--10--|
D|-----------------------------|

3.ANIMAL I HAVE BECOME


Tuning: Drop C

intro: ( bass intro first )

|---------------------------------------------------------------|
|---------------------------------------------------------------|
|---------------------------------------------------------------|
|---------------------------------------------------------------|
|-00----------7-------------------------------------------------|
|-00------7-8---8-7---------------------------------------------|x4

|---------------------------------------------------------------|
|---------------------------------------------------------------|
|---------------------------------------------------------------|
|-00------------------------------------------------------------|
|-00----------7-------------------------------------------------|
|-00------7-8---8-7---------------------------------------------|x3

|---------------------------------------------------------------|
|---------------------------------------------------------------|
|---------------------------------------------------------------|
|-00------------------------------------------------------------|
|-00----------7-------------------------------------------------|
|-00------7-8---8-----------------------------------------------|x1

Verse:

|---------------------------------------------------------------|
|---------------------------------------------------------------|
|---------------------------------------------------------------|
|-33-333-333-333------------------------------------------------|
|-33-333-333-333----------00------7----------00------7----------|
|-33-333-333-333--5v------00--7-8---8-7------00--7-8---8--------|x3

Pre-chorus:

|---------------------------------------------------------------|
|---------------------------------------------------------------|
|---------------------------------------------------------------|
|--33-333-333-333-3-555-555-5-8~--------------------------------|
|--33-333-333-333-3-555-555-5-8~--------------------------------|
|--33-333-333-333-3-555-555-5-8~--------------------------------|x1

Chorus:

Guitar 1:
|---------------------------------------------------------------|
|--------10's---------------------------------------------------|
|--------V------------------------------------------------------|
|-00-10101010-33-7-78--00-10101010-33-55-32---------------------|
|-00-10101010-33-7-78--00-10101010-33-55-32---------------------|
|-00-10101010-33-7-78--00-10101010-33-55-32---------------------|x1

|---------------------------------------------------------------|
|---------------------------------------------------------------|
|---------------------------------------------------------------|
|-00-10101010-33-7-78--00-10101010-33--5-3-2~-------------------|
|-00-10101010-33-7-78--00-10101010-33--5-3-2~-------------------|
|-00-10101010-33-7-78--00-10101010-33--5-3-2~-------------------|x1

Guitar 2:
|-------12-12-13-13-17~-17-18-------12-12-13-13-15~-13-12-------|
|-15-15-----------------------15-15-----------------------------|
|---------------------------------------------------------------|
|---------------------------------------------------------------|
|---------------------------------------------------------------|
|---------------------------------------------------------------|x2

Re-intro:

|---------------------------------------------------------------|
|---------------------------------------------------------------|
|---------------------------------------------------------------|
|---------------------------------------------------------------|
|-00----------7------00----------7------------------------------|
|-00------7-8---8-7--00------7-8---8----------------------------|x1

Verse 2:

|---------------------------------------------------------------|
|---------------------------------------------------------------|
|---------------------------------------------------------------|
|-33-333-333-333------------------------------------------------|
|-33-333-333-333----------00------7----------00------7----------|
|-33-333-333-333--5v------00--7-8---8-7------00--7-8---8--------|x3

Pre-Chorus:

|---------------------------------------------------------------|
|---------------------------------------------------------------|
|---------------------------------------------------------------|
|--33-333-333-333-3-555-555-5-8~--------------------------------|
|--33-333-333-333-3-555-555-5-8~--------------------------------|
|--33-333-333-333-3-555-555-5-8~--------------------------------|x1

Chorus 2:

Guitar 1:
|---------------------------------------------------------------|
|--------10's---------------------------------------------------|
|--------V------------------------------------------------------|
|-00-10101010-33-7-78--00-10101010-33-55-32---------------------|
|-00-10101010-33-7-78--00-10101010-33-55-32---------------------|
|-00-10101010-33-7-78--00-10101010-33-55-32---------------------|x2

|---------------------------------------------------------------|
|---------------------------------------------------------------|
|---------------------------------------------------------------|
|-00-10101010-33-7-78--00-10101010-33--5-3-2-0~-----------------|
|-00-10101010-33-7-78--00-10101010-33--5-3-2-0~-----------------|
|-00-10101010-33-7-78--00-10101010-33--5-3-2-0~-----------------|x1

Guitar 2:
|-------12-12-13-13-17~-17-18-------12-12-13-13-15~-13-12-------|
|-15-15-----------------------15-15-----------------------------|
|---------------------------------------------------------------|
|---------------------------------------------------------------|
|---------------------------------------------------------------|
|---------------------------------------------------------------|x3

Bridge:

Quick pickslide THEN ...

|---------------------------------------------------------------|
|---------------------------------------------------------------|
|---------------------------------------------------------------|
|-88-888-555-5----------00-000-333-333-3------------------------|
|-88-888-555-5----7-----00-000-333-333-3------------------------|
|-88-888-555-5--8---8-7-00-000-333-333-3------------------------|x2

|---------------------------------------------------------------|
|---------------------------------------------------------------|
|-----------------9---------------------------------------------|
|-88-888-8--0-7-8---8-7--0~~------------------------------------|
|-88-888-8---------------0~~------------------------------------|
|-88-888-8---------------0~~------------------------------------|x1

Re-intro:

|---------------------------------------------------------------|
|---------------------------------------------------------------|
|---------------------------------------------------------------|
|---------------------------------------------------------------|
|-00----------7-------------------------------------------------|
|-00------7-8---8-7---------------------------------------------|x4

Chorus 3: (TWO riffs of no bass and treble first)

Guitar 1:
|---------------------------------------------------------------|
|--------10's---------------------------------------------------|
|--------V------------------------------------------------------|
|-00-10101010-33-7-78--00-10101010-33-55-32---------------------|
|-00-10101010-33-7-78--00-10101010-33-55-32---------------------|
|-00-10101010-33-7-78--00-10101010-33-55-32---------------------|x1

|---------------------------------------------------------------|
|---------------------------------------------------------------|
|---------------------------------------------------------------|
|-00-10101010-33-7-78--00-10101010-33--5-3-2-0~-----------------|
|-00-10101010-33-7-78--00-10101010-33--5-3-2-0~-----------------|
|-00-10101010-33-7-78--00-10101010-33--5-3-2-0~-----------------|x1

Guitar 2:
|-------12-12-13-13-17~-17-18-------12-12-13-13-15~-13-12-------|
|-15-15-----------------------15-15-----------------------------|
|---------------------------------------------------------------|
|---------------------------------------------------------------|
|---------------------------------------------------------------|
|---------------------------------------------------------------|x2

Outro:

|---------------------------------------------------------------|
|---------------------------------------------------------------|
|---------------------------------------------------------------|
|-00------------------------------------------------------------|
|-00----------7-------------------------------------------------|
|-00------7-8---8-7---------------------------------------------|x6

|---------------------------------------------------------------|
|---------------------------------------------------------------|
|-------9v------------------------------------------------------|
|-0-7-8----8-7--------------------------------------------------|
|---------------------------------------------------------------|
|---------------------------------------------------------------|x4

|---------------------------------------------------------------|
|---------------------------------------------------------------|
|---------------------------------------------------------------|
|-0~~~~~--------------------------------------------------------|
|-0~~~~~--------------------------------------------------------|
|-0~~~~~--------------------------------------------------------|x1

4.NEVER TOO LATE


Intro/verse (acous.) (x3) Play this 4th time
E|--------------------------------|-------------------|(x1)
B|--------------------------------|-------------------|
G|--------------------------------|-------------------|
D|-------10-----------10--8--7--0-|-------10-----10---|
A|----8------8-----0--------------|----7------7--10---|
D|-8------------0-----------------|-7------------10---|

Chorus (dist.) (x1)
E|------------------------------------------------|
B|------------------------------------------------|
G|------------------------------------------------|
D|-0-----8-----7-----10-----0-----8-----7-----10--|
A|-0-----8-----7-----10-----0-----8-----7-----10--|
D|-0-----8-----7-----10-----0-----8-----7-----10--|

E|------------------------------------------------|
B|------------------------------------------------|
G|------------------------------------------------|
D|-0-----8-----7-----10-----8-----0-----7-----10--|
A|-0-----8-----7-----10-----8-----0-----7-----10--|
D|-0-----8-----7-----10-----8-----0-----7-----10--|

Repeat Intro/verse and chorus.

Bridge (x3)
E|------------------------------------------------|-----------|(x1)
B|------------------------------------------------|-----------|
G|------------------------------------------------|-----------|
D|-8-8-8-8---8-8-8-8---8-8---3-3-3--10-10-10-10---|-8--7--10--|
A|-8-8-8-8---8-8-8-8---8-8---3-3-3--10-10-10-10---|-8--7--10--|
D|-8-8-8-8---8-8-8-8---8-8---3-3-3--10-10-10-10---|-8--7--10--|

E|---------------------------------------|
B|---------------------------------------|
G|---------------------------------------|
D|-------10-----12--------10----12--10---|
A|----8----------------8------------10---|
D|-8---------0------8--------0------10---|

End with the intro.

1c.2c.3c.






Rambler's Top100 CY-PR.com
Copyright IIIdg © 2019